88 Fingers Louie - Another Love Song (var.2) Bass Noten kostenlos herutnerladen oder online abspielen

Bass Noten für Another Love Song (var.2) von 88 Fingers Louie kostenlos herutnerladen oder online abspielen: Datei .txt, 3.08 kb hat 248 Aufrufe und 0 Downloads.

Download bass noten "Another Love Song (var.2)" (88 Fingers Louie)

88 Fingers Louie Bandname
Another Love Song Songname
Bass Noten Registerkarten-Typ
3.08 kb Dateigröße
.TXT Dateityp
248 Aufrufe
0 Downloads
 
Bist du ein Roboter?

Another Love Song (var.2) bass noten lesen onder online abpsielen

                    Band: 88 Fingers Louie
Song: Another Love Song
Tabbed by: Toneman

I dont know why it took me so long to learn this song, but it is pretty easy...

intro:
|---------------------------------------------------|
|---------------------------------------------------|
|-88-888-888-8------------88-888-8------------------|
|-------------5-55-6-666----------8-888888888888888-|

|---------------------------------------------------------------|
|---------------------------------------------------------------|
|-88-8/12-12-12/13-13--8------------88-888-8--------------------|
|-----------------------5-55-6-666----------8-88888888-88775533-|

Verse: 4x
|---------------------------------|
|---------------------------------|
|-77777-888-12-12-12--------------|
|-------------------55555-666-888-|

Chorus:
|------------------------------------------------|
|------------------------------------------------|
|-88-888-888-8------------88-888-8---------------|
|-------------5-55-6-666----------8-888888888888-|

|----------------------------------------------------------|
|----------8p7h8-------------------------------------------|
|-88-----88-----88-8------------88-888-8-------------------|
|---5h6h8-----------5-55-6-666----------8-8888888-88775533-|

Repeat Verse: 4x

Bridge: 2x
|---------------------------------------------|
|---------------------------------------------|
|-888888888-555555555-------------------------|
|---------------------666666666-8888888888888-|

End Chorus:
|-------------------------------------------------------------------------------|
|-------------------------------------------------------------------------------|
|-88888888888888888-8-----------88888888888-8-----------------------------------|
|--------------------55-5-66-6--(fast triplets>-888-888-888-888-888-888-888-888-|

|------------------------------------------------------------|
|------------------------------------------------------------|
|-88888888888888888-8-----------88888888888-8----------------|
|--------------------55-5-66-6---------------8-8-8-8-8-8-8-8-|

|-------- 10~--------------------------------|
|------------10~-8~-7~-8-7-------------------|
|-8-PAUSE------------------8-----------------|
|---------------------------8888888888888888-|

|------------------------------------------------------|
|------------------------------------------------------|
|-88888888888888888-8-----------88888888888-8------7-8-|
|--------------------55-5-66-6---------------5-6-8-----|

That's it! Just listen for the rhythms and you'll be fine. good luck!                    

Kommentare für bass noten — Another Love Song (var.2) (88 Fingers Louie)

Andere Another Love Song (var.2) von 88 Fingers Louie Registerkarten:

Zuletzt angesehene 88 Fingers Louie Registerkarten: